  0
SECTION
  2
HEADER
  9
$ACADVER
  1
AC1015
  9
$ACADMAINTVER
 70
     6
  9
$DWGCODEPAGE
  3
ANSI_1254
  9
$INSBASE
 10
0.0
 20
0.0
 30
0.0
  9
$EXTMIN
 10
0.0
 20
0.0
 30
0.0
  9
$EXTMAX
 10
279.4
 20
215.9
 30
0.0
  9
$LIMMIN
 10
0.0
 20
0.0
  9
$LIMMAX
 10
279.4
 20
215.9
  9
$ORTHOMODE
 70
     0
  9
$REGENMODE
 70
     1
  9
$FILLMODE
 70
     1
  9
$QTEXTMODE
 70
     0
  9
$MIRRTEXT
 70
     1
  9
$LTSCALE
 40
1.0
  9
$ATTMODE
 70
     1
  9
$TEXTSIZE
 40
3.5
  9
$TRACEWID
 40
1.0
  9
$TEXTSTYLE
  7
Standard
  9
$CLAYER
  8
0
  9
$CELTYPE
  6
ByLayer
  9
$CECOLOR
 62
   256
  9
$CELTSCALE
 40
1.0
  9
$DISPSILH
 70
     0
  9
$DIMSCALE
 40
1.0
  9
$DIMASZ
 40
3.5
  9
$DIMEXO
 40
1.0
  9
$DIMDLI
 40
3.75
  9
$DIMRND
 40
0.0
  9
$DIMDLE
 40
0.0
  9
$DIMEXE
 40
1.0
  9
$DIMTP
 40
0.0
  9
$DIMTM
 40
0.0
  9
$DIMTXT
 40
3.5
  9
$DIMCEN
 40
2.5
  9
$DIMTSZ
 40
0.0
  9
$DIMTOL
 70
     0
  9
$DIMLIM
 70
     0
  9
$DIMTIH
 70
     1
  9
$DIMTOH
 70
     1
  9
$DIMSE1
 70
     0
  9
$DIMSE2
 70
     0
  9
$DIMTAD
 70
     1
  9
$DIMZIN
 70
     0
  9
$DIMBLK
  1

  9
$DIMASO
 70
     1
  9
$DIMSHO
 70
     1
  9
$DIMPOST
  1

  9
$DIMAPOST
  1

  9
$DIMALT
 70
     0
  9
$DIMALTD
 70
     3
  9
$DIMALTF
 40
0.0393700787
  9
$DIMLFAC
 40
1.0
  9
$DIMTOFL
 70
     1
  9
$DIMTVP
 40
0.0
  9
$DIMTIX
 70
     0
  9
$DIMSOXD
 70
     0
  9
$DIMSAH
 70
     0
  9
$DIMBLK1
  1

  9
$DIMBLK2
  1

  9
$DIMSTYLE
  2
ISO-25
  9
$DIMCLRD
 70
     0
  9
$DIMCLRE
 70
     0
  9
$DIMCLRT
 70
     0
  9
$DIMTFAC
 40
1.0
  9
$DIMGAP
 40
1.524
  9
$DIMJUST
 70
     0
  9
$DIMSD1
 70
     0
  9
$DIMSD2
 70
     0
  9
$DIMTOLJ
 70
     0
  9
$DIMTZIN
 70
     0
  9
$DIMALTZ
 70
     0
  9
$DIMALTTZ
 70
     0
  9
$DIMUPT
 70
     0
  9
$DIMDEC
 70
     2
  9
$DIMTDEC
 70
     2
  9
$DIMALTU
 70
     2
  9
$DIMALTTD
 70
     3
  9
$DIMTXSTY
  7
Standard
  9
$DIMAUNIT
 70
     0
  9
$DIMADEC
 70
     2
  9
$DIMALTRND
 40
0.0
  9
$DIMAZIN
 70
     0
  9
$DIMDSEP
 70
    44
  9
$DIMATFIT
 70
     3
  9
$DIMFRAC
 70
     0
  9
$DIMLDRBLK
  1

  9
$DIMLUNIT
 70
     2
  9
$DIMLWD
 70
    -2
  9
$DIMLWE
 70
    -2
  9
$DIMTMOVE
 70
     0
  9
$LUNITS
 70
     2
  9
$LUPREC
 70
     2
  9
$SKETCHINC
 40
1.0
  9
$FILLETRAD
 40
10.0
  9
$AUNITS
 70
     0
  9
$AUPREC
 70
     2
  9
$MENU
  1
.
  9
$ELEVATION
 40
0.0
  9
$PELEVATION
 40
0.0
  9
$THICKNESS
 40
0.0
  9
$LIMCHECK
 70
     0
  9
$CHAMFERA
 40
0.0
  9
$CHAMFERB
 40
0.0
  9
$CHAMFERC
 40
0.0
  9
$CHAMFERD
 40
0.0
  9
$SKPOLY
 70
     0
  9
$TDCREATE
 40
2458985.690510035
  9
$TDUCREATE
 40
2458985.565510035
  9
$TDUPDATE
 40
2458985.690510382
  9
$TDUUPDATE
 40
2458985.565510382
  9
$TDINDWG
 40
0.0000000116
  9
$TDUSRTIMER
 40
0.0000000116
  9
$USRTIMER
 70
     1
  9
$ANGBASE
 50
0.0
  9
$ANGDIR
 70
     0
  9
$PDMODE
 70
     0
  9
$PDSIZE
 40
-1.0
  9
$PLINEWID
 40
0.0
  9
$SPLFRAME
 70
     0
  9
$SPLINETYPE
 70
     6
  9
$SPLINESEGS
 70
     8
  9
$HANDSEED
  5
CB
  9
$SURFTAB1
 70
     6
  9
$SURFTAB2
 70
     6
  9
$SURFTYPE
 70
     6
  9
$SURFU
 70
     6
  9
$SURFV
 70
     6
  9
$UCSBASE
  2

  9
$UCSNAME
  2

  9
$UCSORG
 10
0.0
 20
0.0
 30
0.0
  9
$UCSXDIR
 10
1.0
 20
0.0
 30
0.0
  9
$UCSYDIR
 10
0.0
 20
1.0
 30
0.0
  9
$UCSORTHOREF
  2

  9
$UCSORTHOVIEW
 70
     0
  9
$UCSORGTOP
 10
0.0
 20
0.0
 30
0.0
  9
$UCSORGBOTTOM
 10
0.0
 20
0.0
 30
0.0
  9
$UCSORGLEFT
 10
0.0
 20
0.0
 30
0.0
  9
$UCSORGRIGHT
 10
0.0
 20
0.0
 30
0.0
  9
$UCSORGFRONT
 10
0.0
 20
0.0
 30
0.0
  9
$UCSORGBACK
 10
0.0
 20
0.0
 30
0.0
  9
$PUCSBASE
  2

  9
$PUCSNAME
  2

  9
$PUCSORG
 10
0.0
 20
0.0
 30
0.0
  9
$PUCSXDIR
 10
1.0
 20
0.0
 30
0.0
  9
$PUCSYDIR
 10
0.0
 20
1.0
 30
0.0
  9
$PUCSORTHOREF
  2

  9
$PUCSORTHOVIEW
 70
     0
  9
$PUCSORGTOP
 10
0.0
 20
0.0
 30
0.0
  9
$PUCSORGBOTTOM
 10
0.0
 20
0.0
 30
0.0
  9
$PUCSORGLEFT
 10
0.0
 20
0.0
 30
0.0
  9
$PUCSORGRIGHT
 10
0.0
 20
0.0
 30
0.0
  9
$PUCSORGFRONT
 10
0.0
 20
0.0
 30
0.0
  9
$PUCSORGBACK
 10
0.0
 20
0.0
 30
0.0
  9
$USERI1
 70
     0
  9
$USERI2
 70
     0
  9
$USERI3
 70
     0
  9
$USERI4
 70
     0
  9
$USERI5
 70
     0
  9
$USERR1
 40
0.0
  9
$USERR2
 40
0.0
  9
$USERR3
 40
0.0
  9
$USERR4
 40
0.0
  9
$USERR5
 40
0.0
  9
$WORLDVIEW
 70
     1
  9
$SHADEDGE
 70
     3
  9
$SHADEDIF
 70
    70
  9
$TILEMODE
 70
     1
  9
$MAXACTVP
 70
    64
  9
$PINSBASE
 10
0.0
 20
0.0
 30
0.0
  9
$PLIMCHECK
 70
     0
  9
$PEXTMIN
 10
1.0000000000E+20
 20
1.0000000000E+20
 30
1.0000000000E+20
  9
$PEXTMAX
 10
-1.0000000000E+20
 20
-1.0000000000E+20
 30
-1.0000000000E+20
  9
$PLIMMIN
 10
0.0
 20
0.0
  9
$PLIMMAX
 10
420.0
 20
297.0
  9
$UNITMODE
 70
     0
  9
$VISRETAIN
 70
     1
  9
$PLINEGEN
 70
     0
  9
$PSLTSCALE
 70
     1
  9
$TREEDEPTH
 70
  3020
  9
$CMLSTYLE
  2
Standard
  9
$CMLJUST
 70
     0
  9
$CMLSCALE
 40
20.0
  9
$PROXYGRAPHICS
 70
     1
  9
$MEASUREMENT
 70
     1
  9
$CELWEIGHT
370
    -1
  9
$ENDCAPS
280
     0
  9
$JOINSTYLE
280
     0
  9
$LWDISPLAY
290
     1
  9
$INSUNITS
 70
     4
  9
$HYPERLINKBASE
  1

  9
$STYLESHEET
  1

  9
$XEDIT
290
     1
  9
$CEPSNTYPE
380
     0
  9
$PSTYLEMODE
290
     1
  9
$FINGERPRINTGUID
  2
{efec1795-5309-4b00-bc4b-aa7cde7fa808}
  9
$VERSIONGUID
  2
{FAEB1C32-E019-11D5-929B-00C0DF256EC4}
  9
$EXTNAMES
290
     1
  9
$PSVPSCALE
 40
0.0
  9
$OLESTARTUP
290
     0
  0
ENDSEC
  0
SECTION
  2
CLASSES
  0
CLASS
  1
ACDBDICTIONARYWDFLT
  2
AcDbDictionaryWithDefault
  3
ObjectDBX Classes
 90
        0
280
     0
281
     0
  0
CLASS
  1
VISUALSTYLE
  2
AcDbVisualStyle
  3
ObjectDBX Classes
 90
     4095
280
     0
281
     0
  0
CLASS
  1
MATERIAL
  2
AcDbMaterial
  3
ObjectDBX Classes
 90
     1153
280
     0
281
     0
  0
CLASS
  1
SCALE
  2
AcDbScale
  3
ObjectDBX Classes
 90
     1153
280
     0
281
     0
  0
CLASS
  1
TABLESTYLE
  2
AcDbTableStyle
  3
ObjectDBX Classes
 90
     4095
280
     0
281
     0
  0
CLASS
  1
MLEADERSTYLE
  2
AcDbMLeaderStyle
  3
ACDB_MLEADERSTYLE_CLASS
 90
     4095
280
     0
281
     0
  0
CLASS
  1
SUN
  2
AcDbSun
  3
SCENEOE
 90
     1153
280
     0
281
     0
  0
CLASS
  1
ACDBPLACEHOLDER
  2
AcDbPlaceHolder
  3
ObjectDBX Classes
 90
        0
280
     0
281
     0
  0
CLASS
  1
LAYOUT
  2
AcDbLayout
  3
ObjectDBX Classes
 90
        0
280
     0
281
     0
  0
ENDSEC
  0
SECTION
  2
TABLES
  0
TABLE
  2
VPORT
  5
8
330
0
100
AcDbSymbolTable
 70
     1
  0
VPORT
  5
29
330
8
100
AcDbSymbolTableRecord
100
AcDbViewportTableRecord
  2
*Active
 70
     0
 10
0.0
 20
0.0
 11
1.0
 21
1.0
 12
139.7
 22
107.95
 13
0.0
 23
0.0
 14
10.0
 24
10.0
 15
10.0
 25
10.0
 16
0.0
 26
0.0
 36
1.0
 17
0.0
 27
0.0
 37
0.0
 40
215.9
 41
1.2941176471
 42
50.0
 43
0.0
 44
0.0
 50
0.0
 51
0.0
 71
     0
 72
  2000
 73
     1
 74
     3
 75
     0
 76
     0
 77
     0
 78
     0
281
     0
 65
     1
110
0.0
120
0.0
130
0.0
111
1.0
121
0.0
131
0.0
112
0.0
122
1.0
132
0.0
 79
     0
146
0.0
  0
ENDTAB
  0
TABLE
  2
LTYPE
  5
5
330
0
100
AcDbSymbolTable
 70
     6
  0
LTYPE
  5
14
330
5
100
AcDbSymbolTableRecord
100
AcDbLinetypeTableRecord
  2
ByBlock
 70
     0
  3

 72
    65
 73
     0
 40
0.0
  0
LTYPE
  5
15
330
5
100
AcDbSymbolTableRecord
100
AcDbLinetypeTableRecord
  2
ByLayer
 70
     0
  3

 72
    65
 73
     0
 40
0.0
  0
LTYPE
  5
16
330
5
100
AcDbSymbolTableRecord
100
AcDbLinetypeTableRecord
  2
Continuous
 70
     0
  3
Solid line
 72
    65
 73
     0
 40
0.0
  0
LTYPE
  5
6E
330
5
100
AcDbSymbolTableRecord
100
AcDbLinetypeTableRecord
  2
HIDDEN
 70
     0
  3
Hidden __ __ __ __ __ __ __ __ __ __ __ __ __ __
 72
    65
 73
     2
 40
1.905
 49
1.27
 74
     0
 49
-0.635
 74
     0
  0
LTYPE
  5
6F
330
5
100
AcDbSymbolTableRecord
100
AcDbLinetypeTableRecord
  2
PHANTOM
 70
     0
  3
Phantom ______  __  __  ______  __  __  ______
 72
    65
 73
     6
 40
12.7
 49
6.35
 74
     0
 49
-1.27
 74
     0
 49
1.27
 74
     0
 49
-1.27
 74
     0
 49
1.27
 74
     0
 49
-1.27
 74
     0
  0
LTYPE
  5
70
330
5
100
AcDbSymbolTableRecord
100
AcDbLinetypeTableRecord
  2
CENTER
 70
     0
  3
Center ____ _ ____ _ ____ _ ____ _ ____ _ ____
 72
    65
 73
     4
 40
10.16
 49
6.35
 74
     0
 49
-1.27
 74
     0
 49
1.27
 74
     0
 49
-1.27
 74
     0
  0
LTYPE
  5
71
330
5
100
AcDbSymbolTableRecord
100
AcDbLinetypeTableRecord
  2
CENTERX2
 70
     0
  3
Center (2x) ________  __  ________  __  _____
 72
    65
 73
     4
 40
20.32
 49
12.7
 74
     0
 49
-2.54
 74
     0
 49
2.54
 74
     0
 49
-2.54
 74
     0
  0
LTYPE
  5
72
330
5
100
AcDbSymbolTableRecord
100
AcDbLinetypeTableRecord
  2
DOT2
 70
     0
  3
Dot (.5x) ........................................
 72
    65
 73
     2
 40
0.635
 49
0.0
 74
     0
 49
-0.635
 74
     0
  0
ENDTAB
  0
TABLE
  2
LAYER
  5
2
330
0
100
AcDbSymbolTable
 70
    17
  0
LAYER
  5
10
330
2
100
AcDbSymbolTableRecord
100
AcDbLayerTableRecord
  2
0
 70
     0
 62
     7
  6
Continuous
370
    -3
390
F
  0
LAYER
  5
73
330
2
100
AcDbSymbolTableRecord
100
AcDbLayerTableRecord
  2
FORMAT
 70
     0
 62
     7
  6
Continuous
370
    -3
390
F
  0
LAYER
  5
74
330
2
100
AcDbSymbolTableRecord
100
AcDbLayerTableRecord
  2
YARDIMCI_GEOMETRI
 70
     0
 62
    -6
  6
Continuous
290
     0
370
    -3
390
F
  0
LAYER
  5
75
330
2
100
AcDbSymbolTableRecord
100
AcDbLayerTableRecord
  2
SAYFA_CERCEVESI
 70
     0
 62
     7
  6
Continuous
370
    25
390
F
  0
LAYER
  5
76
330
2
100
AcDbSymbolTableRecord
100
AcDbLayerTableRecord
  2
ANTET
 70
     0
 62
     7
  6
Continuous
370
    -3
390
F
  0
LAYER
  5
77
330
2
100
AcDbSymbolTableRecord
100
AcDbLayerTableRecord
  2
OLCU
 70
     0
 62
   150
  6
Continuous
370
    -3
390
F
  0
LAYER
  5
78
330
2
100
AcDbSymbolTableRecord
100
AcDbLayerTableRecord
  2
METIN
 70
     0
 62
    96
  6
Continuous
370
    -3
390
F
  0
LAYER
  5
79
330
2
100
AcDbSymbolTableRecord
100
AcDbLayerTableRecord
  2
BALON
 70
     0
 62
     5
  6
Continuous
370
    -3
390
F
  0
LAYER
  5
7A
330
2
100
AcDbSymbolTableRecord
100
AcDbLayerTableRecord
  2
VURGU
 70
     0
 62
     7
  6
Continuous
370
    -3
390
F
  0
LAYER
  5
7B
330
2
100
AcDbSymbolTableRecord
100
AcDbLayerTableRecord
  2
SILIK
 70
     0
 62
     7
  6
Continuous
370
    -3
390
F
  0
LAYER
  5
7C
330
2
100
AcDbSymbolTableRecord
100
AcDbLayerTableRecord
  2
MODEL
 70
     0
 62
     7
  6
Continuous
370
    -3
390
F
  0
LAYER
  5
7D
330
2
100
AcDbSymbolTableRecord
100
AcDbLayerTableRecord
  2
DETAYLANDıRMA
 70
     0
 62
   190
  6
Continuous
370
    -3
390
F
  0
LAYER
  5
7E
330
2
100
AcDbSymbolTableRecord
100
AcDbLayerTableRecord
  2
TOLERANS
 70
     0
 62
   230
  6
Continuous
370
    -3
390
F
  0
LAYER
  5
7F
330
2
100
AcDbSymbolTableRecord
100
AcDbLayerTableRecord
  2
MERKEZ_CIZGILERI
 70
     0
 62
    30
  6
Continuous
370
    -3
390
F
  0
LAYER
  5
80
330
2
100
AcDbSymbolTableRecord
100
AcDbLayerTableRecord
  2
KESIT-DETAY_CIZGILERI
 70
     0
 62
     7
  6
Continuous
370
    -3
390
F
  0
LAYER
  5
81
330
2
100
AcDbSymbolTableRecord
100
AcDbLayerTableRecord
  2
\U+041E\U+0421\U+0415\U+0412\U+042B\U+0415
 70
     0
 62
     7
  6
Continuous
370
    -3
390
F
  0
LAYER
  5
82
330
2
100
AcDbSymbolTableRecord
100
AcDbLayerTableRecord
  2
\U+0412\U+041E\U+0414\U+042F\U+041D\U+042B\U+0415_\U+0417\U+041D\U+0410\U+041A\U+0418
 70
     0
 62
    11
  6
Continuous
370
    -3
390
F
  0
ENDTAB
  0
TABLE
  2
STYLE
  5
3
330
0
100
AcDbSymbolTable
 70
     1
  0
STYLE
  5
11
330
3
100
AcDbSymbolTableRecord
100
AcDbTextStyleTableRecord
  2
Standard
 70
     0
 40
0.0
 41
1.0
 50
0.0
 71
     0
 42
3.5
  3
txt
  4

  0
ENDTAB
  0
TABLE
  2
VIEW
  5
6
330
0
100
AcDbSymbolTable
 70
     0
  0
ENDTAB
  0
TABLE
  2
UCS
  5
7
330
0
100
AcDbSymbolTable
 70
     0
  0
ENDTAB
  0
TABLE
  2
APPID
  5
9
330
0
100
AcDbSymbolTable
 70
     1
  0
APPID
  5
12
330
9
100
AcDbSymbolTableRecord
100
AcDbRegAppTableRecord
  2
ACAD
 70
     0
  0
ENDTAB
  0
TABLE
  2
DIMSTYLE
  5
A
330
0
100
AcDbSymbolTable
 70
     1
100
AcDbDimStyleTable
  0
DIMSTYLE
105
27
330
A
100
AcDbSymbolTableRecord
100
AcDbDimStyleTableRecord
  2
ISO-25
 70
     0
 41
2.5
 42
0.625
 43
3.75
 44
1.25
 73
     0
 74
     0
 77
     1
 78
     8
140
2.5
141
2.5
143
0.0393700787
147
0.625
171
     3
172
     1
178
     0
271
     2
272
     2
274
     3
278
    44
283
     0
284
     8
340
11
  0
ENDTAB
  0
TABLE
  2
BLOCK_RECORD
  5
1
330
0
100
AcDbSymbolTable
 70
     3
  0
BLOCK_RECORD
  5
1F
330
1
100
AcDbSymbolTableRecord
100
AcDbBlockTableRecord
  2
*Model_Space
340
22
  0
BLOCK_RECORD
  5
1B
330
1
100
AcDbSymbolTableRecord
100
AcDbBlockTableRecord
  2
*Paper_Space
340
1E
  0
BLOCK_RECORD
  5
23
330
1
100
AcDbSymbolTableRecord
100
AcDbBlockTableRecord
  2
*Paper_Space0
340
26
  0
BLOCK_RECORD
  5
88
330
1
100
AcDbSymbolTableRecord
100
AcDbBlockTableRecord
  2
SW_CENTERMARKSYMBOL_0
340
0
102
{BLKREFS
331
93
102
}
  0
BLOCK_RECORD
  5
9C
330
1
100
AcDbSymbolTableRecord
100
AcDbBlockTableRecord
  2
SW_CENTERMARKSYMBOL_1
340
0
102
{BLKREFS
331
A7
102
}
  0
ENDTAB
  0
ENDSEC
  0
SECTION
  2
BLOCKS
  0
BLOCK
  5
20
330
1F
100
AcDbEntity
  8
0
100
AcDbBlockBegin
  2
*Model_Space
 70
     0
 10
0.0
 20
0.0
 30
0.0
  3
*Model_Space
  1

  0
ENDBLK
  5
21
330
1F
100
AcDbEntity
  8
0
100
AcDbBlockEnd
  0
BLOCK
  5
1C
330
1B
100
AcDbEntity
 67
     1
  8
0
100
AcDbBlockBegin
  2
*Paper_Space
 70
     0
 10
0.0
 20
0.0
 30
0.0
  3
*Paper_Space
  1

  0
ENDBLK
  5
1D
330
1B
100
AcDbEntity
 67
     1
  8
0
100
AcDbBlockEnd
  0
BLOCK
  5
24
330
23
100
AcDbEntity
  8
0
100
AcDbBlockBegin
  2
*Paper_Space0
 70
     0
 10
0.0
 20
0.0
 30
0.0
  3
*Paper_Space0
  1

  0
ENDBLK
  5
25
330
23
100
AcDbEntity
  8
0
100
AcDbBlockEnd
  0
BLOCK
  5
89
330
88
100
AcDbEntity
  8
0
100
AcDbBlockBegin
  2
SW_CENTERMARKSYMBOL_0
 70
     0
 10
0.0
 20
0.0
 30
0.0
  3
SW_CENTERMARKSYMBOL_0
  1

  0
LINE
  5
8B
330
88
100
AcDbEntity
  8
FORMAT
 62
     0
100
AcDbLine
 10
0.0
 20
0.0
 30
0.0
 11
2.5
 21
0.0
 31
0.0
  0
LINE
  5
8C
330
88
100
AcDbEntity
  8
FORMAT
 62
     0
100
AcDbLine
 10
0.0
 20
0.0
 30
0.0
 11
0.0
 21
2.5
 31
0.0
  0
LINE
  5
8D
330
88
100
AcDbEntity
  8
FORMAT
 62
     0
100
AcDbLine
 10
0.0
 20
0.0
 30
0.0
 11
-2.5
 21
0.0
 31
0.0
  0
LINE
  5
8E
330
88
100
AcDbEntity
  8
FORMAT
 62
     0
100
AcDbLine
 10
0.0
 20
0.0
 30
0.0
 11
0.0
 21
-2.5
 31
0.0
  0
LINE
  5
8F
330
88
100
AcDbEntity
  8
FORMAT
 62
     0
100
AcDbLine
 10
5.0
 20
0.0
 30
0.0
 11
65.0
 21
0.0
 31
0.0
  0
LINE
  5
90
330
88
100
AcDbEntity
  8
FORMAT
 62
     0
100
AcDbLine
 10
0.0
 20
5.0
 30
0.0
 11
0.0
 21
65.0
 31
0.0
  0
LINE
  5
91
330
88
100
AcDbEntity
  8
FORMAT
 62
     0
100
AcDbLine
 10
-5.0
 20
0.0
 30
0.0
 11
-65.0
 21
0.0
 31
0.0
  0
LINE
  5
92
330
88
100
AcDbEntity
  8
FORMAT
 62
     0
100
AcDbLine
 10
0.0
 20
-5.0
 30
0.0
 11
0.0
 21
-65.0
 31
0.0
  0
ENDBLK
  5
8A
330
88
100
AcDbEntity
  8
0
100
AcDbBlockEnd
  0
BLOCK
  5
9D
330
9C
100
AcDbEntity
  8
0
100
AcDbBlockBegin
  2
SW_CENTERMARKSYMBOL_1
 70
     0
 10
0.0
 20
0.0
 30
0.0
  3
SW_CENTERMARKSYMBOL_1
  1

  0
LINE
  5
9F
330
9C
100
AcDbEntity
  8
FORMAT
 62
     0
100
AcDbLine
 10
0.0
 20
0.0
 30
0.0
 11
0.0
 21
2.5
 31
0.0
  0
LINE
  5
A0
330
9C
100
AcDbEntity
  8
FORMAT
 62
     0
100
AcDbLine
 10
0.0
 20
0.0
 30
0.0
 11
-2.5
 21
0.0
 31
0.0
  0
LINE
  5
A1
330
9C
100
AcDbEntity
  8
FORMAT
 62
     0
100
AcDbLine
 10
0.0
 20
0.0
 30
0.0
 11
0.0
 21
-2.5
 31
0.0
  0
LINE
  5
A2
330
9C
100
AcDbEntity
  8
FORMAT
 62
     0
100
AcDbLine
 10
0.0
 20
0.0
 30
0.0
 11
2.5
 21
0.0
 31
0.0
  0
LINE
  5
A3
330
9C
100
AcDbEntity
  8
FORMAT
 62
     0
100
AcDbLine
 10
0.0
 20
5.0
 30
0.0
 11
0.0
 21
47.5
 31
0.0
  0
LINE
  5
A4
330
9C
100
AcDbEntity
  8
FORMAT
 62
     0
100
AcDbLine
 10
-5.0
 20
0.0
 30
0.0
 11
-47.5
 21
0.0
 31
0.0
  0
LINE
  5
A5
330
9C
100
AcDbEntity
  8
FORMAT
 62
     0
100
AcDbLine
 10
0.0
 20
-5.0
 30
0.0
 11
0.0
 21
-47.5
 31
0.0
  0
LINE
  5
A6
330
9C
100
AcDbEntity
  8
FORMAT
 62
     0
100
AcDbLine
 10
5.0
 20
0.0
 30
0.0
 11
47.5
 21
0.0
 31
0.0
  0
ENDBLK
  5
9E
330
9C
100
AcDbEntity
  8
0
100
AcDbBlockEnd
  0
ENDSEC
  0
SECTION
  2
ENTITIES
  0
LINE
  5
83
330
1F
100
AcDbEntity
  8
0
  6
Continuous
 62
     7
370
    25
100
AcDbLine
 10
92.4622382918
 20
120.8248355338
 30
0.0
 11
92.4622382918
 21
-7.7103941789
 31
0.0
  0
LINE
  5
84
330
1F
100
AcDbEntity
  8
0
  6
Continuous
 62
     7
370
    25
100
AcDbLine
 10
182.4622418681
 20
-7.7103941789
 30
0.0
 11
182.4622418681
 21
120.8762482652
 31
0.0
  0
CIRCLE
  5
85
330
1F
100
AcDbEntity
  8
0
  6
Continuous
 62
     7
370
    25
100
AcDbCircle
 10
137.46224008
 20
164.2896116623
 30
0.0
 40
55.09999999999997
  0
CIRCLE
  5
86
330
1F
100
AcDbEntity
  8
0
  6
Continuous
 62
     7
370
    25
100
AcDbCircle
 10
137.46224008
 20
164.2896116623
 30
0.0
 40
62.49999999999997
  0
LINE
  5
87
330
1F
100
AcDbEntity
  8
0
  6
Continuous
 62
     7
370
    25
100
AcDbLine
 10
182.4622418681
 20
-7.7103941789
 30
0.0
 11
92.4622382918
 21
-7.7103941789
 31
0.0
  0
INSERT
  5
93
330
1F
100
AcDbEntity
  8
FORMAT
 62
     7
100
AcDbBlockReference
  2
SW_CENTERMARKSYMBOL_0
 10
137.46224008
 20
164.2896116623
 30
0.0
  0
LINE
  5
94
330
1F
100
AcDbEntity
  8
0
  6
Continuous
 62
     7
370
    25
100
AcDbLine
 10
199.96224008
 20
292.9668994237
 30
0.0
 11
199.96224008
 21
648.9669056226
 31
0.0
  0
LINE
  5
95
330
1F
100
AcDbEntity
  8
0
  6
Continuous
 62
     7
370
    25
100
AcDbLine
 10
74.96224008
 20
648.9669056226
 30
0.0
 11
74.96224008
 21
292.9668994237
 31
0.0
  0
CIRCLE
  5
96
330
1F
100
AcDbEntity
  8
0
  6
Continuous
 62
     7
370
    25
100
AcDbCircle
 10
137.46224008
 20
470.9669025231
 30
0.0
 40
39.59999999999997
  0
CIRCLE
  5
97
330
1F
100
AcDbEntity
  8
0
  6
Continuous
 62
     7
370
    25
100
AcDbCircle
 10
137.46224008
 20
470.9669025231
 30
0.0
 40
45.0
  0
LINE
  5
98
330
1F
100
AcDbEntity
  8
0
  6
Continuous
 62
     7
370
    25
100
AcDbLine
 10
137.46224008
 20
648.9669056226
 30
0.0
 11
199.96224008
 21
648.9669056226
 31
0.0
  0
LINE
  5
99
330
1F
100
AcDbEntity
  8
0
  6
Continuous
 62
     7
370
    25
100
AcDbLine
 10
74.96224008
 20
648.9669056226
 30
0.0
 11
137.46224008
 21
648.9669056226
 31
0.0
  0
LINE
  5
9A
330
1F
100
AcDbEntity
  8
0
  6
Continuous
 62
     7
370
    25
100
AcDbLine
 10
137.46224008
 20
292.9668994237
 30
0.0
 11
199.96224008
 21
292.9668994237
 31
0.0
  0
LINE
  5
9B
330
1F
100
AcDbEntity
  8
0
  6
Continuous
 62
     7
370
    25
100
AcDbLine
 10
74.96224008
 20
292.9668994237
 30
0.0
 11
137.46224008
 21
292.9668994237
 31
0.0
  0
INSERT
  5
A7
330
1F
100
AcDbEntity
  8
FORMAT
100
AcDbBlockReference
  2
SW_CENTERMARKSYMBOL_1
 10
137.46224008
 20
470.9669025231
 30
0.0
  0
LINE
  5
A8
330
1F
100
AcDbEntity
  8
0
  6
Continuous
 62
     7
370
    25
100
AcDbLine
 10
-68.3657937837
 20
226.7896116623
 30
0.0
 11
-424.3657999826
 21
226.7896116623
 31
0.0
  0
LINE
  5
A9
330
1F
100
AcDbEntity
  8
0
  6
Continuous
 62
     7
370
    25
100
AcDbLine
 10
-201.4442348075
 20
101.7896116623
 30
0.0
 11
-68.3657937837
 21
101.7896116623
 31
0.0
  0
LINE
  5
AA
330
1F
100
AcDbEntity
  8
0
  6
Continuous
 62
     7
370
    25
100
AcDbLine
 10
-424.3657999826
 20
101.7896116623
 30
0.0
 11
-291.3657986713
 21
101.7896116623
 31
0.0
  0
LINE
  5
AB
330
1F
100
AcDbEntity
  8
0
  6
Continuous
 62
     7
370
    25
100
AcDbLine
 10
-291.3657986713
 20
101.7896116623
 30
0.0
 11
-291.3657986713
 21
-7.7103941789
 31
0.0
  0
LINE
  5
AC
330
1F
100
AcDbEntity
  8
0
  6
Continuous
 62
     7
370
    25
100
AcDbLine
 10
-201.365795095
 20
-7.7103941789
 30
0.0
 11
-201.365795095
 21
101.8459753045
 31
0.0
  0
SPLINE
  5
AD
330
1F
100
AcDbEntity
  8
0
  6
Continuous
 62
     7
370
    25
100
AcDbSpline
210
0.0
220
0.0
230
1.0
 70
     8
 71
     3
 72
    37
 73
    33
 74
     0
 42
0.000000001
 43
0.00000001
 40
0.0
 40
0.0
 40
0.0
 40
0.0
 40
0.009557788790373
 40
0.0320479725642742
 40
0.0545390895577083
 40
0.0959918471313216
 40
0.1384717107386152
 40
0.1836680273036741
 40
0.2298131986145648
 40
0.2832135038460327
 40
0.3105533507696134
 40
0.3378914039631959
 40
0.383709245781103
 40
0.4072015126270985
 40
0.4306883047652272
 40
0.4672712882680837
 40
0.504876413908584
 40
0.5414820225422047
 40
0.5791263428501997
 40
0.6034298374139012
 40
0.6277390515599233
 40
0.6776800392421177
 40
0.727858628701906
 40
0.7790565737906291
 40
0.8087013694654616
 40
0.8383417665650879
 40
0.8691246775960193
 40
0.8999005690235036
 40
0.9244502576325051
 40
0.9489973984590484
 40
0.9744993146705099
 40
1.0
 40
1.0
 40
1.0
 40
1.0
 10
-201.4442348075196
 20
101.8460200080062
 30
0.0
 10
-201.418282876694
 20
101.8273580251519
 30
0.0
 10
-201.3312641336218
 20
101.7647830166821
 30
0.0
 10
-201.5943240329534
 20
101.9542106516371
 30
0.0
 10
-202.1600360443011
 20
102.3596971544904
 30
0.0
 10
-203.4367991159301
 20
103.2685257657189
 30
0.0
 10
-205.725299635114
 20
104.8619449732495
 30
0.0
 10
-208.8326799738102
 20
106.9516003798669
 30
0.0
 10
-212.9046650562953
 20
109.5474917306276
 30
0.0
 10
-217.0798261289502
 20
111.9975982664029
 30
0.0
 10
-221.0088220951457
 20
114.0716086234365
 30
0.0
 10
-224.8933513942671
 20
115.9439794443791
 30
0.0
 10
-228.9263327729646
 20
117.6087356464514
 30
0.0
 10
-233.0446510880281
 20
118.9504491032358
 30
0.0
 10
-236.893911177732
 20
119.9582971656424
 30
0.0
 10
-241.581460128488
 20
120.7650155704091
 30
0.0
 10
-247.0439866646013
 20
121.0278053138401
 30
0.0
 10
-252.5347443288359
 20
120.588872262757
 30
0.0
 10
-257.2148850522755
 20
119.644853098927
 30
0.0
 10
-261.1264689630396
 20
118.507395382535
 30
0.0
 10
-265.4166151652346
 20
116.9885276075736
 30
0.0
 10
-270.4710877114763
 20
114.7531195713641
 30
0.0
 10
-275.9810690046069
 20
111.828206770722
 30
0.0
 10
-280.17156655977
 20
109.3213549474227
 30
0.0
 10
-283.265777264413
 20
107.353105056772
 30
0.0
 10
-285.5072697186991
 20
105.8729303368306
 30
0.0
 10
-287.4567808664786
 20
104.5474353948376
 30
0.0
 10
-288.9625193922288
 20
103.4992076548457
 30
0.0
 10
-290.0512422805771
 20
102.7304601327304
 30
0.0
 10
-290.7942207165339
 20
102.200295362951
 30
0.0
 10
-291.2739651863641
 20
101.85593860134
 30
0.0
 10
-291.3351880021485
 20
101.8117202862673
 30
0.0
 10
-291.3657986712739
 20
101.7896116623069
 30
0.0
  0
LINE
  5
AE
330
1F
100
AcDbEntity
  8
0
  6
Continuous
 62
     7
370
    25
100
AcDbLine
 10
-424.3657999826
 20
101.7896116623
 30
0.0
 11
-424.3657999826
 21
226.7896116623
 31
0.0
  0
LINE
  5
AF
330
1F
100
AcDbEntity
  8
0
  6
Continuous
 62
     7
370
    25
100
AcDbLine
 10
-68.3657937837
 20
101.7896116623
 30
0.0
 11
-68.3657937837
 21
226.7896116623
 31
0.0
  0
LINE
  5
B0
330
1F
100
AcDbEntity
  8
0
  6
Continuous
 62
     7
370
    25
100
AcDbLine
 10
-201.365795095
 20
-7.7103941789
 30
0.0
 11
-291.3657986713
 21
-7.7103941789
 31
0.0
  0
LINE
  5
B1
330
1F
100
AcDbEntity
  8
0
  6
Continuous
 62
     7
370
    25
100
AcDbLine
 10
559.5778461452
 20
101.7896116623
 30
0.0
 11
692.5778474565
 21
101.7896116623
 31
0.0
  0
LINE
  5
B2
330
1F
100
AcDbEntity
  8
0
  6
Continuous
 62
     7
370
    25
100
AcDbLine
 10
336.5778412576
 20
101.7896116623
 30
0.0
 11
469.5778425689
 21
101.7896116623
 31
0.0
  0
LINE
  5
B3
330
1F
100
AcDbEntity
  8
0
  6
Continuous
 62
     7
370
    25
100
AcDbLine
 10
692.5778474565
 20
226.7896116623
 30
0.0
 11
336.5778412576
 21
226.7896116623
 31
0.0
  0
LINE
  5
B4
330
1F
100
AcDbEntity
  8
0
  6
Continuous
 62
     7
370
    25
100
AcDbLine
 10
469.5778425689
 20
101.7896116623
 30
0.0
 11
469.5778425689
 21
-7.7103941789
 31
0.0
  0
LINE
  5
B5
330
1F
100
AcDbEntity
  8
0
  6
Continuous
 62
     7
370
    25
100
AcDbLine
 10
559.5778461452
 20
-7.7103941789
 30
0.0
 11
559.5778461452
 21
101.7896116623
 31
0.0
  0
SPLINE
  5
B6
330
1F
100
AcDbEntity
  8
0
  6
Continuous
 62
     7
370
    25
100
AcDbSpline
210
0.0
220
0.0
230
1.0
 70
     8
 71
     3
 72
    36
 73
    32
 74
     0
 42
0.000000001
 43
0.00000001
 40
0.0
 40
0.0
 40
0.0
 40
0.0
 40
0.0444506757110962
 40
0.0673361100557574
 40
0.0904031154451941
 40
0.1348195618617054
 40
0.1803351749842453
 40
0.228889822249955
 40
0.2784535399607306
 40
0.3070751115994995
 40
0.3358837973816545
 40
0.3653294332623135
 40
0.3950333957916302
 40
0.433784901803456
 40
0.47352144007733
 40
0.5123311558408797
 40
0.5524890958817059
 40
0.5743052755913552
 40
0.5962947865330027
 40
0.6413190544823011
 40
0.6702069964634163
 40
0.6993072136476932
 40
0.7290279103407907
 40
0.7589540555134205
 40
0.788065284601508
 40
0.8173908468065876
 40
0.8474606522230974
 40
0.8778254128815283
 40
0.9213235251194133
 40
0.9660274941227603
 40
0.9999999999999999
 40
0.9999999999999999
 40
0.9999999999999999
 40
0.9999999999999999
 10
559.5778461451905
 20
101.7896116623069
 30
0.0
 10
559.4892194598543
 20
101.8536019392262
 30
0.0
 10
559.3549633176877
 20
101.9505376159105
 30
0.0
 10
558.5274794602966
 20
102.5423288342999
 30
0.0
 10
557.4195439206808
 20
103.3277510447549
 30
0.0
 10
555.4776671843744
 20
104.6843902550628
 30
0.0
 10
552.320713729075
 20
106.8144695287477
 30
0.0
 10
548.3082125016477
 20
109.3813842696717
 30
0.0
 10
544.1730148236969
 20
111.8194165231782
 30
0.0
 10
540.3210809485571
 20
113.8769408682344
 30
0.0
 10
536.9822328742395
 20
115.5037124307498
 30
0.0
 10
533.3902615616826
 20
117.0533203809903
 30
0.0
 10
529.1603401253493
 20
118.5978391855049
 30
0.0
 10
524.2016681652121
 20
119.9717244581438
 30
0.0
 10
518.5419063742979
 20
120.8629276283912
 30
0.0
 10
512.6784423795838
 20
121.0066639380191
 30
0.0
 10
507.7537515857566
 20
120.4572318231903
 30
0.0
 10
503.7929277581779
 20
119.6282249477381
 30
0.0
 10
499.727248161559
 20
118.5157143820745
 30
0.0
 10
495.5682361824066
 20
116.9950539227249
 30
0.0
 10
491.4170173154152
 20
115.1502182526177
 30
0.0
 10
488.0918825754325
 20
113.4937656381222
 30
0.0
 10
484.9494720190011
 20
111.7826505784444
 30
0.0
 10
482.0399225313854
 20
110.0832842318449
 30
0.0
 10
479.3864662872733
 20
108.4467626403802
 30
0.0
 10
476.9865807084752
 20
106.9017063091377
 30
0.0
 10
474.8427655861774
 20
105.4729853529885
 30
0.0
 10
472.7289621088243
 20
104.0247902707796
 30
0.0
 10
470.913231756868
 20
102.7477273089856
 30
0.0
 10
469.7318000523031
 20
101.9006396355913
 30
0.0
 10
469.6790568143024
 20
101.8624921110529
 30
0.0
 10
469.6562822814362
 20
101.8460200080062
 30
0.0
  0
LINE
  5
B7
330
1F
100
AcDbEntity
  8
0
  6
Continuous
 62
     7
370
    25
100
AcDbLine
 10
692.5778474565
 20
226.7896116623
 30
0.0
 11
692.5778474565
 21
101.7896116623
 31
0.0
  0
LINE
  5
B8
330
1F
100
AcDbEntity
  8
0
  6
Continuous
 62
     7
370
    25
100
AcDbLine
 10
336.5778412576
 20
226.7896116623
 30
0.0
 11
336.5778412576
 21
101.7896116623
 31
0.0
  0
LINE
  5
B9
330
1F
100
AcDbEntity
  8
0
  6
Continuous
 62
     7
370
    25
100
AcDbLine
 10
559.5778461452
 20
-7.7103941789
 30
0.0
 11
469.5778425689
 21
-7.7103941789
 31
0.0
  0
LINE
  5
BA
330
1F
100
AcDbEntity
  8
0
  6
Continuous
 62
     7
370
    25
100
AcDbLine
 10
74.96224008
 20
-62.1061903785
 30
0.0
 11
74.96224008
 21
-418.1061965774
 31
0.0
  0
LINE
  5
BB
330
1F
100
AcDbEntity
  8
0
  6
Continuous
 62
     7
370
    25
100
AcDbLine
 10
199.96224008
 20
-418.1061965774
 30
0.0
 11
199.96224008
 21
-62.1061903785
 31
0.0
  0
LINE
  5
BC
330
1F
100
AcDbEntity
  8
0
  6
Continuous
 62
     7
370
    25
100
AcDbLine
 10
199.96224008
 20
-418.1061965774
 30
0.0
 11
74.96224008
 21
-418.1061965774
 31
0.0
  0
LINE
  5
BD
330
1F
100
AcDbEntity
  8
0
  6
Continuous
 62
     7
370
    25
100
AcDbLine
 10
199.96224008
 20
-62.1061903785
 30
0.0
 11
74.96224008
 21
-62.1061903785
 31
0.0
  0
LINE
  5
BE
330
1F
100
AcDbEntity
  8
0
  6
Continuous
 62
     7
370
    25
100
AcDbLine
 10
651.9497397287
 20
-247.0555248124
 30
0.0
 11
400.219721243
 21
-101.7348783775
 31
0.0
  0
LINE
  5
BF
330
1F
100
AcDbEntity
  8
0
  6
Continuous
 62
     7
370
    25
100
AcDbLine
 10
539.8372682283
 20
-326.6680282873
 30
0.0
 11
589.4548194935
 21
-355.3116309365
 31
0.0
  0
LINE
  5
C0
330
1F
100
AcDbEntity
  8
0
  6
Continuous
 62
     7
370
    25
100
AcDbLine
 10
337.7248010079
 20
-209.9909845016
 30
0.0
 11
449.8372711911
 21
-274.71213591
 31
0.0
  0
LINE
  5
C1
330
1F
100
AcDbEntity
  8
0
  6
Continuous
 62
     7
370
    25
100
AcDbLine
 10
449.837269874
 20
-272.4353812608
 30
0.0
 11
449.837269874
 21
-368.968279071
 31
0.0
  0
LINE
  5
C2
330
1F
100
AcDbEntity
  8
0
  6
Continuous
 62
     7
370
    25
100
AcDbLine
 10
539.8372708625
 20
-368.968279071
 30
0.0
 11
539.8372708625
 21
-272.4351865823
 31
0.0
  0
SPLINE
  5
C3
330
1F
100
AcDbEntity
  8
0
  6
Continuous
 62
     7
370
    25
100
AcDbSpline
210
0.0
220
0.0
230
1.0
 70
     8
 71
     3
 72
    14
 73
    10
 74
     0
 42
0.000000001
 43
0.00000001
 40
0.0
 40
0.0
 40
0.0
 40
0.0
 40
0.1789122638236137
 40
0.2710252587711325
 40
0.3638690702055986
 40
0.5426435624321485
 40
0.7258421584670021
 40
0.9212727502970522
 40
1.0
 40
1.0
 40
1.0
 40
1.0
 10
463.0174639504568
 20
-261.1878721539328
 30
0.0
 10
461.532969353006
 20
-262.0649789845643
 30
0.0
 10
459.2841825799813
 20
-263.3936643449831
 30
0.0
 10
456.8021002861378
 20
-265.0187280405345
 30
0.0
 10
454.5946959122009
 20
-266.556875584267
 30
0.0
 10
452.3842637336444
 20
-268.3057648954959
 30
0.0
 10
450.6529774592967
 20
-270.1638827980508
 30
0.0
 10
449.8206740746788
 20
-271.5125506101232
 30
0.0
 10
449.9273545786597
 20
-272.228646091741
 30
0.0
 10
449.9579889848411
 20
-272.4342802894616
 30
0.0
  0
SPLINE
  5
C4
330
1F
100
AcDbEntity
  8
0
  6
Continuous
 62
     7
370
    25
100
AcDbSpline
210
0.0
220
0.0
230
1.0
 70
     8
 71
     3
 72
    30
 73
    26
 74
     0
 42
0.000000001
 43
0.00000001
 40
0.0
 40
0.0
 40
0.0
 40
0.0
 40
0.0462458660299184
 40
0.0825147788657736
 40
0.1189999454447686
 40
0.1799648956634893
 40
0.2111032819807352
 40
0.2424751415220388
 40
0.2911522437078573
 40
0.3411894021963179
 40
0.3898966092477521
 40
0.439985919929722
 40
0.472201157779459
 40
0.5046698708790893
 40
0.5711210546781653
 40
0.6378883900018034
 40
0.7060120739160226
 40
0.7452949807863761
 40
0.7848968165429117
 40
0.8256257009313278
 40
0.8668072408644787
 40
0.8993305572867506
 40
0.932135586967331
 40
0.9658914347529626
 40
0.9999999999999999
 40
0.9999999999999999
 40
0.9999999999999999
 40
0.9999999999999999
 10
539.704015698419
 20
-272.4370585376425
 30
0.0
 10
539.7144309888841
 20
-270.9868749280211
 30
0.0
 10
539.7330146043148
 20
-268.3993662459418
 30
0.0
 10
539.0884625963939
 20
-264.6815717763296
 30
0.0
 10
538.0669485255007
 20
-260.5808338661875
 30
0.0
 10
536.5720031764039
 20
-256.7887662453426
 30
0.0
 10
534.6831157619665
 20
-253.4218725795238
 30
0.0
 10
532.6952153875021
 20
-250.6037343815937
 30
0.0
 10
529.938303554474
 20
-247.7054389334856
 30
0.0
 10
526.2529994769924
 20
-245.158699274528
 30
0.0
 10
522.0728767068595
 20
-243.4475012651142
 30
0.0
 10
518.104655055044
 20
-242.6912222859385
 30
0.0
 10
514.4955864545916
 20
-242.5090834414877
 30
0.0
 10
510.2785914677503
 20
-242.6810470970692
 30
0.0
 10
504.8061387393607
 20
-243.5371082807407
 30
0.0
 10
498.0178967017645
 20
-245.3458770399221
 30
0.0
 10
492.0650557887641
 20
-247.4093698031784
 30
0.0
 10
487.0393743424442
 20
-249.3914358792673
 30
0.0
 10
482.9680789292944
 20
-251.1212398981014
 30
0.0
 10
478.8815023752494
 20
-252.9700701375562
 30
0.0
 10
475.1177548072048
 20
-254.7696783344934
 30
0.0
 10
471.7244980485601
 20
-256.4666303323601
 30
0.0
 10
468.6906510126517
 20
-258.044611407949
 30
0.0
 10
465.746836577216
 20
-259.6331028844084
 30
0.0
 10
463.9304017296
 20
-260.6678231177244
 30
0.0
 10
463.0174639504568
 20
-261.1878721539328
 30
0.0
  0
LWPOLYLINE
  5
C5
330
1F
100
AcDbEntity
  8
0
  6
Continuous
 62
     7
370
    25
100
AcDbPolyline
 90
       91
 70
   128
 43
0.0
 10
368.9722611254
 20
-206.8967321824
 10
372.0550907134
 20
-204.9927381531
 10
375.1229015353
 20
-202.8493847381
 10
378.1607462772
 20
-200.4771229072
 10
381.1538264562
 20
-197.8875009922
 10
384.0875592626
 20
-195.0931413086
 10
386.947650988
 20
-192.1076551812
 10
389.7201694647
 20
-188.9455889578
 10
392.3916053108
 20
-185.6223491094
 10
394.9489443695
 20
-182.1541239094
 10
397.379729613
 20
-178.5578081534
 10
399.6721151428
 20
-174.8509263577
 10
401.8149320439
 20
-171.0515399888
 10
403.7977463372
 20
-167.1781531716
 10
405.6108905892
 20
-163.2496396881
 10
407.2455376695
 20
-159.2851395609
 10
408.6937218235
 20
-155.303966279
 10
409.9483860885
 20
-151.3255155468
 10
411.0034191713
 20
-147.3691725109
 10
411.8536791565
 20
-143.4542098603
 10
412.4950251161
 20
-139.5997011367
 10
412.9243355492
 20
-135.824423777
 10
413.1395136501
 20
-132.146773182
 10
413.1395136501
 20
-128.584665379
 10
412.9243355492
 20
-125.1554541311
 10
412.4950251161
 20
-121.8758480469
 10
411.8536791565
 20
-118.7618216066
 10
411.0034191713
 20
-115.828548239
 10
409.9483860885
 20
-113.0903204722
 10
408.6937218235
 20
-110.5604742659
 10
407.2455376695
 20
-108.251338818
 10
405.6108905892
 20
-106.1741620368
 10
403.7977463372
 20
-104.3390603472
 10
401.8149320439
 20
-102.7549821838
 10
399.6721151428
 20
-101.4296395474
 10
397.379729613
 20
-100.369489747
 10
394.9489443695
 20
-99.5796988947
 10
392.3916053108
 20
-99.0641145232
 10
389.7201694647
 20
-98.8252488499
 10
386.947650988
 20
-98.8642643228
 10
384.0875592626
 20
-99.1809698124
 10
381.1538264562
 20
-99.7738259282
 10
378.1607462772
 20
-100.6399408303
 10
375.1229015353
 20
-101.7750998809
 10
372.0550907134
 20
-103.1737654469
 10
368.9722611254
 20
-104.8291306967
 10
365.8894315374
 20
-106.7331247261
 10
362.8216207155
 20
-108.8764781411
 10
359.7837759736
 20
-111.2487399719
 10
356.7906957947
 20
-113.838361887
 10
353.8569629882
 20
-116.6327215706
 10
350.9968712628
 20
-119.618207698
 10
348.2243527861
 20
-122.7802739214
 10
345.5529169401
 20
-126.1035137698
 10
342.9955778813
 20
-129.5717389697
 10
340.5647926378
 20
-133.1680547257
 10
338.272407108
 20
-136.8749365215
 10
336.1295902069
 20
-140.6743228904
 10
334.1467759137
 20
-144.5477097075
 10
332.3336316616
 20
-148.4762231911
 10
330.6989845814
 20
-152.4407233183
 10
329.2508004273
 20
-156.4218966002
 10
327.9961361623
 20
-160.4003473323
 10
326.9411030795
 20
-164.3566903683
 10
326.0908430944
 20
-168.2716530189
 10
325.4494971347
 20
-172.1261617425
 10
325.0201867016
 20
-175.9014391021
 10
324.8050086007
 20
-179.5790896971
 10
324.8050086007
 20
-183.1411975002
 10
325.0201867016
 20
-186.5704087481
 10
325.4494971347
 20
-189.8500148323
 10
326.0908430944
 20
-192.9640412726
 10
326.9411030795
 20
-195.8973146402
 10
327.9961361623
 20
-198.635542407
 10
329.2508004273
 20
-201.1653886133
 10
330.6989845814
 20
-203.4745240611
 10
332.3336316616
 20
-205.5517008423
 10
334.1467759137
 20
-207.386802532
 10
336.1295902069
 20
-208.9708806954
 10
338.272407108
 20
-210.2962233318
 10
340.5647926378
 20
-211.3563731322
 10
342.9955778813
 20
-212.1461639845
 10
345.5529169401
 20
-212.661748356
 10
348.2243527861
 20
-212.9006140293
 10
350.9968712628
 20
-212.8615985564
 10
353.8569629882
 20
-212.5448930668
 10
356.7906957947
 20
-211.952036951
 10
359.7837759736
 20
-211.0859220489
 10
362.8216207155
 20
-209.9507629983
 10
365.8894315374
 20
-208.5520974323
 10
368.9722611254
 20
-206.8967321824
  0
LWPOLYLINE
  5
C6
330
1F
100
AcDbEntity
  8
0
  6
Continuous
 62
     7
370
    25
100
AcDbPolyline
 90
       35
 70
   128
 43
0.0
 10
620.7022796111
 20
-352.2173786173
 10
623.7851091991
 20
-350.313384588
 10
626.852920021
 20
-348.170031173
 10
629.8907647629
 20
-345.7977693421
 10
632.8838449419
 20
-343.208147427
 10
635.8175777483
 20
-340.4137877434
 10
638.6776694737
 20
-337.428301616
 10
641.4501879504
 20
-334.2662353926
 10
644.1216237964
 20
-330.9429955443
 10
646.6789628552
 20
-327.4747703443
 10
649.1097480987
 20
-323.8784545883
 10
651.4021336285
 20
-320.1715727925
 10
653.5449505296
 20
-316.3721864236
 10
655.5277648229
 20
-312.4987996065
 10
657.3409090749
 20
-308.570286123
 10
658.9755561551
 20
-304.6057859957
 10
660.4237403092
 20
-300.6246127139
 10
661.6784045742
 20
-296.6461619817
 10
662.733437657
 20
-292.6898189458
 10
663.5836976422
 20
-288.7748562951
 10
664.2250436018
 20
-284.9203475715
 10
664.6543540349
 20
-281.1450702119
 10
664.8695321358
 20
-277.4674196169
 10
664.8695321358
 20
-273.9053118138
 10
664.6543540349
 20
-270.4761005659
 10
664.2250436018
 20
-267.1964944817
 10
663.5836976422
 20
-264.0824680415
 10
662.733437657
 20
-261.1491946739
 10
661.6784045742
 20
-258.410966907
 10
660.4237403092
 20
-255.8811207008
 10
658.9755561551
 20
-253.5719852529
 10
657.3409090749
 20
-251.4948084717
 10
655.5277648229
 20
-249.6597067821
 10
653.5449505296
 20
-248.0756286186
 10
651.9497397287
 20
-247.0555248124
  0
LWPOLYLINE
  5
C7
330
1F
100
AcDbEntity
  8
0
  6
Continuous
 62
     7
370
    25
100
AcDbPolyline
 90
       13
 70
   128
 43
0.0
 10
589.4548194935
 20
-355.3116309365
 10
590.0024255937
 20
-355.6168697667
 10
592.2948111235
 20
-356.677019567
 10
594.725596367
 20
-357.4668104194
 10
597.2829354258
 20
-357.9823947909
 10
599.9543712718
 20
-358.2212604642
 10
602.7268897485
 20
-358.1822449913
 10
605.5869814739
 20
-357.8655395017
 10
608.5207142803
 20
-357.2726833859
 10
611.5137944593
 20
-356.4065684837
 10
614.5516392012
 20
-355.2714094331
 10
617.6194500231
 20
-353.8727438671
 10
620.7022796111
 20
-352.2173786173
  0
LWPOLYLINE
  5
C8
330
1F
100
AcDbEntity
  8
0
  6
Continuous
 62
     7
370
    25
100
AcDbPolyline
 90
       85
 70
   128
 43
0.0
 10
368.9722611254
 20
-200.8543313134
 10
371.883863873
 20
-199.0476939277
 10
374.7791841075
 20
-196.9995491104
 10
377.6420292075
 20
-194.721352666
 10
380.4563896266
 20
-192.2258417964
 10
383.2065254926
 20
-189.5269790245
 10
385.8770591327
 20
-186.6398501108
 10
388.4530534402
 20
-183.5806036042
 10
390.9201020957
 20
-180.3663500888
 10
393.2644112257
 20
-177.0150633318
 10
395.4728692092
 20
-173.5454852316
 10
397.5331230682
 20
-169.9770208817
 10
399.4336535423
 20
-166.3296222266
 10
401.163831723
 20
-162.6236899672
 10
402.7139822746
 20
-158.8799503725
 10
404.0754361169
 20
-155.1193366512
 10
405.2405778415
 20
-151.3628809716
 10
406.2028904918
 20
-147.6315943118
 10
406.9569977104
 20
-143.9463379458
 10
407.49867691
 20
-140.327725345
 10
407.82490142
 20
-136.7959910022
 10
407.933845755
 20
-133.3708873895
 10
407.82490142
 20
-130.0715682287
 10
407.49867691
 20
-126.9164846879
 10
406.9569977104
 20
-123.9232815787
 10
406.2028904918
 20
-121.1086988746
 10
405.2405778415
 20
-118.4884747511
 10
404.0754361169
 20
-116.0772630724
 10
402.7139822746
 20
-113.8885504987
 10
401.163831723
 20
-111.9345766344
 10
399.4336535423
 20
-110.2262655821
 10
397.5331230682
 20
-108.7731727052
 10
395.4728692092
 20
-107.5834268285
 10
393.2644112257
 20
-106.6636800414
 10
390.9201020957
 20
-106.0190749925
 10
388.4530534402
 20
-105.653215225
 10
385.8770591327
 20
-105.5681484387
 10
383.2065254926
 20
-105.7643520352
 10
380.4563896266
 20
-106.2407285472
 10
377.6420292075
 20
-106.9946090523
 10
374.7791841075
 20
-108.0217832036
 10
371.883863873
 20
-109.3165039742
 10
368.9722611254
 20
-110.8715315658
 10
366.0606583779
 20
-112.6781689515
 10
363.1653381433
 20
-114.7263137688
 10
360.3024930433
 20
-117.0045102131
 10
357.4881326242
 20
-119.5000210827
 10
354.7379967582
 20
-122.1988838547
 10
352.0674631182
 20
-125.0860127684
 10
349.4914688106
 20
-128.145259275
 10
347.0244201552
 20
-131.3595127904
 10
344.6801110251
 20
-134.7107995474
 10
342.4716530417
 20
-138.1803776476
 10
340.4113991826
 20
-141.7488419975
 10
338.5108687085
 20
-145.3962406526
 10
336.7806905278
 20
-149.1021729119
 10
335.2305399763
 20
-152.8459125067
 10
333.8690861339
 20
-156.6065262279
 10
332.7039444093
 20
-160.3629819076
 10
331.7416317591
 20
-164.0942685674
 10
330.9875245404
 20
-167.7795249334
 10
330.4458453409
 20
-171.3981375342
 10
330.1196208308
 20
-174.929871877
 10
330.0106764958
 20
-178.3549754896
 10
330.1196208308
 20
-181.6542946505
 10
330.4458453409
 20
-184.8093781913
 10
330.9875245404
 20
-187.8025813004
 10
331.7416317591
 20
-190.6171640046
 10
332.7039444093
 20
-193.237388128
 10
333.8690861339
 20
-195.6485998068
 10
335.2305399763
 20
-197.8373123805
 10
336.7806905278
 20
-199.7912862447
 10
338.5108687085
 20
-201.4995972971
 10
340.4113991826
 20
-202.952690174
 10
342.4716530417
 20
-204.1424360507
 10
344.6801110251
 20
-205.0621828378
 10
347.0244201552
 20
-205.7067878867
 10
349.4914688106
 20
-206.0726476542
 10
352.0674631182
 20
-206.1577144405
 10
354.7379967582
 20
-205.961510844
 10
357.4881326242
 20
-205.485134332
 10
360.3024930433
 20
-204.7312538269
 10
363.1653381433
 20
-203.7040796756
 10
366.0606583779
 20
-202.409358905
 10
368.9722611254
 20
-200.8543313134
  0
LWPOLYLINE
  5
C9
330
1F
100
AcDbEntity
  8
0
  6
Continuous
 62
     7
370
    25
100
AcDbPolyline
 90
       72
 70
   128
 43
0.0
 10
522.8386987515
 20
-385.1331595975
 10
525.2038939499
 20
-383.6412501366
 10
527.3314293257
 20
-382.0345045395
 10
529.2046529225
 20
-380.3254980581
 10
530.8089048809
 20
-378.5276054409
 10
532.1316284037
 20
-376.654897337
 10
533.162477098
 20
-374.7220327079
 10
533.8933758911
 20
-372.7441354629
 10
534.3186086166
 20
-370.7366891515
 10
534.4348469906
 20
-368.7154016233
 10
534.2411809046
 20
-366.6960932584
 10
533.7391236939
 20
-364.6945677092
 10
532.9326108204
 20
-362.7264894859
 10
531.8279471893
 20
-360.8072623026
 10
530.433780807
 20
-358.951905902
 10
528.7610244147
 20
-357.1749408638
 10
526.8227692184
 20
-355.4902749345
 10
524.6341833094
 20
-353.9110926827
 10
522.2123972
 20
-352.4497529249
 10
519.5763614552
 20
-351.1176943718
 10
516.7467109497
 20
-349.9253390182
 10
513.7455892837
 20
-348.8820211932
 10
510.5964821301
 20
-347.9959065608
 10
507.3240394683
 20
-347.2739290353
 10
503.9538720943
 20
-346.7217371773
 10
500.512354057
 20
-346.3436561771
 10
497.0264198268
 20
-346.1426437544
 10
493.5233529026
 20
-346.1202730514
 10
490.0305684925
 20
-346.2767181857
 10
486.575405413
 20
-346.6107557714
 10
483.1848995503
 20
-347.1197710016
 10
479.8855922239
 20
-347.7997815992
 10
476.7033010125
 20
-348.6454636684
 10
473.6629307524
 20
-349.6501984556
 10
470.7882792665
 20
-350.8061236721
 10
468.1018449047
 20
-352.104192896
 10
465.6246510418
 20
-353.5342464735
 10
463.3760855575
 20
-355.0850920199
 10
461.3737473952
 20
-356.7445929992
 10
459.6333071154
 20
-358.4997613906
 10
458.168384077
 20
-360.3368590032
 10
456.99044354
 20
-362.2415085811
 10
456.1087077615
 20
-364.1988059534
 10
455.5300749954
 20
-366.1934291424
 10
455.2590747107
 20
-368.2097706634
 10
455.2978261038
 20
-370.2320481533
 10
455.6460275611
 20
-372.2444351495
 10
456.3009540256
 20
-374.2311812234
 10
457.2574820209
 20
-376.1767374361
 10
458.5081192862
 20
-378.0658783733
 10
460.0430811672
 20
-379.8838192371
 10
461.8503564706
 20
-381.6163298973
 10
463.9158003189
 20
-383.2498523636
 10
466.2232434276
 20
-384.7716034077
 10
468.7546324166
 20
-386.16967077
 10
471.4901527104
 20
-387.4331145221
 10
474.4083958915
 20
-388.5520454298
 10
477.4865231424
 20
-389.5177071404
 10
480.7004429294
 20
-390.3225422615
 10
484.025002145
 20
-390.9602510017
 10
487.4341830128
 20
-391.4258409732
 10
490.9013026264
 20
-391.7156724318
 10
494.3992263179
 20
-391.8274734834
 10
497.9005783921
 20
-391.7603704985
 10
501.3779541779
 20
-391.5148888712
 10
504.8041439332
 20
-391.0929499792
 10
508.1523264574
 20
-390.497853695
 10
511.3963035329
 20
-389.7342616588
 10
514.5106823418
 20
-388.8081467161
 10
517.4710891643
 20
-387.7267577517
 10
520.254355746
 20
-386.4985577222
 10
522.8386987515
 20
-385.1331595975
  0
LWPOLYLINE
  5
CA
330
1F
100
AcDbEntity
  8
0
  6
Continuous
 62
     7
370
    25
100
AcDbPolyline
 90
       77
 70
   128
 43
0.0
 10
526.6570767861
 20
-387.3374623169
 10
529.1760544748
 20
-385.7578071341
 10
531.4604638781
 20
-384.0634623706
 10
533.4946983143
 20
-382.266001436
 10
535.2648652932
 20
-380.3777052358
 10
536.7588689986
 20
-378.4114689345
 10
537.9665066002
 20
-376.3807281078
 10
538.879527194
 20
-374.2993517248
 10
539.4916956807
 20
-372.1815596511
 10
539.7988289854
 20
-370.0418165816
 10
539.7988289854
 20
-367.8947415603
 10
539.4916956807
 20
-365.7549984909
 10
538.879527194
 20
-363.6372064172
 10
537.9665066002
 20
-361.5558300342
 10
536.7588689986
 20
-359.5250892075
 10
535.2648652932
 20
-357.5588529062
 10
533.4946983143
 20
-355.670556706
 10
531.4604638781
 20
-353.8730957714
 10
529.1760544748
 20
-352.1787510079
 10
526.6570767861
 20
-350.599095825
 10
523.9207372629
 20
-349.1449209583
 10
520.9857280325
 20
-347.8261594804
 10
517.8720970008
 20
-346.6518209369
 10
514.6011176249
 20
-345.6299252916
 10
511.1951274053
 20
-344.7674553107
 10
507.6773999633
 20
-344.0703009626
 10
504.0719596613
 20
-343.5432253929
 10
500.4034386979
 20
-343.1898280479
 10
496.6968933746
 20
-343.0125237651
 10
492.9776473619
 20
-343.0125237651
 10
489.2711020386
 20
-343.1898280479
 10
485.6025810752
 20
-343.5432253929
 10
481.9971407732
 20
-344.0703009626
 10
478.4794133312
 20
-344.7674553107
 10
475.0734231116
 20
-345.6299252916
 10
471.8024437357
 20
-346.6518209369
 10
468.688812704
 20
-347.8261594804
 10
465.7538034736
 20
-349.1449209583
 10
463.0174639505
 20
-350.599095825
 10
460.4984862618
 20
-352.1787510079
 10
458.2140768585
 20
-353.8730957714
 10
456.1798424222
 20
-355.670556706
 10
454.4096754433
 20
-357.5588529062
 10
452.915671738
 20
-359.5250892075
 10
451.7080341363
 20
-361.5558300342
 10
450.7950135425
 20
-363.6372064172
 10
450.1828450558
 20
-365.7549984909
 10
449.8757117511
 20
-367.8947415603
 10
449.8757117511
 20
-370.0418165817
 10
450.1828450558
 20
-372.1815596511
 10
450.7950135425
 20
-374.2993517248
 10
451.7080341363
 20
-376.3807281078
 10
452.915671738
 20
-378.4114689345
 10
454.4096754433
 20
-380.3777052358
 10
456.1798424222
 20
-382.266001436
 10
458.2140768585
 20
-384.0634623706
 10
460.4984862618
 20
-385.7578071341
 10
463.0174639505
 20
-387.3374623169
 10
465.7538034736
 20
-388.7916371836
 10
468.688812704
 20
-390.1103986615
 10
471.8024437357
 20
-391.2847372051
 10
475.0734231116
 20
-392.3066328503
 10
478.4794133312
 20
-393.1691028312
 10
481.9971407732
 20
-393.8662571793
 10
485.6025810752
 20
-394.393332749
 10
489.2711020386
 20
-394.7467300941
 10
492.9776473619
 20
-394.9240343769
 10
496.6968933746
 20
-394.9240343769
 10
500.4034386979
 20
-394.7467300941
 10
504.0719596613
 20
-394.393332749
 10
507.6773999633
 20
-393.8662571793
 10
511.1951274053
 20
-393.1691028312
 10
514.6011176249
 20
-392.3066328503
 10
517.8720970008
 20
-391.2847372051
 10
520.9857280325
 20
-390.1103986615
 10
523.9207372629
 20
-388.7916371836
 10
526.6570767861
 20
-387.3374623169
  0
ENDSEC
  0
SECTION
  2
OBJECTS
  0
DICTIONARY
  5
C
330
0
100
AcDbDictionary
281
     1
  3
ACAD_GROUP
350
D
  3
ACAD_LAYOUT
350
1A
  3
ACAD_MLINESTYLE
350
17
  3
ACAD_PLOTSETTINGS
350
19
  3
ACAD_PLOTSTYLENAME
350
E
  3
ACAD_SCALELIST
350
47
  0
DICTIONARY
  5
D
102
{ACAD_REACTORS
330
C
102
}
330
C
100
AcDbDictionary
281
     1
  0
DICTIONARY
  5
1A
102
{ACAD_REACTORS
330
C
102
}
330
C
100
AcDbDictionary
281
     1
  3
Layout1
350
1E
  3
Layout2
350
26
  3
Model
350
22
  0
DICTIONARY
  5
17
102
{ACAD_REACTORS
330
C
102
}
330
C
100
AcDbDictionary
281
     1
  3
Standard
350
18
  0
DICTIONARY
  5
19
102
{ACAD_REACTORS
330
C
102
}
330
C
100
AcDbDictionary
281
     1
  0
ACDBDICTIONARYWDFLT
  5
E
102
{ACAD_REACTORS
330
C
102
}
330
C
100
AcDbDictionary
281
     1
  3
Normal
350
F
100
AcDbDictionaryWithDefault
340
F
  0
DICTIONARY
  5
47
102
{ACAD_REACTORS
330
C
102
}
330
C
100
AcDbDictionary
281
     1
  3
A0
350
48
  3
A1
350
49
  3
A2
350
4A
  3
A3
350
4B
  3
A4
350
4C
  3
A5
350
4D
  3
A6
350
4E
  3
A7
350
4F
  3
A8
350
50
  3
A9
350
51
  3
B0
350
52
  3
B1
350
53
  3
B2
350
54
  3
B3
350
55
  3
B4
350
56
  3
B5
350
57
  3
B6
350
58
  3
B7
350
59
  3
B8
350
5A
  3
B9
350
5B
  3
C0
350
5C
  3
C1
350
5D
  3
C2
350
5E
  3
C3
350
5F
  3
C4
350
60
  3
C5
350
61
  3
C6
350
62
  3
C7
350
63
  3
C8
350
64
  3
C9
350
65
  3
D0
350
66
  3
D1
350
67
  3
D2
350
68
  0
LAYOUT
  5
1E
102
{ACAD_REACTORS
330
1A
102
}
330
1A
100
AcDbPlotSettings
  1

  2
none_device
  4

  6

 40
0.0
 41
0.0
 42
0.0
 43
0.0
 44
0.0
 45
0.0
 46
0.0
 47
0.0
 48
0.0
 49
0.0
140
0.0
141
0.0
142
1.0
143
1.0
 70
   688
 72
     1
 73
     0
 74
     5
  7

 75
    16
147
1.0
148
0.0
149
0.0
100
AcDbLayout
  1
Layout1
 70
     1
 71
     1
 10
0.0
 20
0.0
 11
420.0
 21
297.0
 12
0.0
 22
0.0
 32
0.0
 14
1.0000000000E+20
 24
1.0000000000E+20
 34
1.0000000000E+20
 15
-1.0000000000E+20
 25
-1.0000000000E+20
 35
-1.0000000000E+20
146
0.0
 13
0.0
 23
0.0
 33
0.0
 16
1.0
 26
0.0
 36
0.0
 17
0.0
 27
1.0
 37
0.0
 76
     0
330
1B
  0
LAYOUT
  5
26
102
{ACAD_REACTORS
330
1A
102
}
330
1A
100
AcDbPlotSettings
  1

  2
none_device
  4

  6

 40
0.0
 41
0.0
 42
0.0
 43
0.0
 44
0.0
 45
0.0
 46
0.0
 47
0.0
 48
0.0
 49
0.0
140
0.0
141
0.0
142
1.0
143
1.0
 70
   688
 72
     1
 73
     0
 74
     5
  7

 75
    16
147
1.0
148
0.0
149
0.0
100
AcDbLayout
  1
Layout2
 70
     1
 71
     2
 10
0.0
 20
0.0
 11
0.0
 21
0.0
 12
0.0
 22
0.0
 32
0.0
 14
0.0
 24
0.0
 34
0.0
 15
0.0
 25
0.0
 35
0.0
146
0.0
 13
0.0
 23
0.0
 33
0.0
 16
1.0
 26
0.0
 36
0.0
 17
0.0
 27
1.0
 37
0.0
 76
     0
330
23
  0
LAYOUT
  5
22
102
{ACAD_REACTORS
330
1A
102
}
330
1A
100
AcDbPlotSettings
  1

  2
none_device
  4
Letter_(8.50_x_11.00_Inches)
  6

 40
6.35
 41
6.35
 42
6.35000508
 43
6.35000508
 44
215.9
 45
279.4
 46
0.0
 47
0.0
 48
0.0
 49
0.0
140
0.0
141
0.0
142
1.0
143
1.0
 70
  1712
 72
     1
 73
     0
 74
     0
  7

 75
     0
147
1.0
148
0.0
149
0.0
100
AcDbLayout
  1
Model
 70
     1
 71
     0
 10
0.0
 20
0.0
 11
279.4
 21
215.9
 12
0.0
 22
0.0
 32
0.0
 14
0.0
 24
0.0
 34
0.0
 15
279.4
 25
215.9
 35
0.0
146
0.0
 13
0.0
 23
0.0
 33
0.0
 16
1.0
 26
0.0
 36
0.0
 17
0.0
 27
1.0
 37
0.0
 76
     0
330
1F
331
29
  0
MLINESTYLE
  5
18
102
{ACAD_REACTORS
330
17
102
}
330
17
100
AcDbMlineStyle
  2
Standard
 70
     0
  3

 62
   256
 51
90.0
 52
90.0
 71
     2
 49
0.5
 62
   256
  6
BYLAYER
 49
-0.5
 62
   256
  6
BYLAYER
  0
ACDBPLACEHOLDER
  5
F
102
{ACAD_REACTORS
330
E
102
}
330
E
  0
SCALE
  5
48
102
{ACAD_REACTORS
330
47
102
}
330
47
100
AcDbScale
 70
     0
300
1:1
140
1.0
141
1.0
290
     1
  0
SCALE
  5
49
102
{ACAD_REACTORS
330
47
102
}
330
47
100
AcDbScale
 70
     0
300
1:2
140
1.0
141
2.0
290
     0
  0
SCALE
  5
4A
102
{ACAD_REACTORS
330
47
102
}
330
47
100
AcDbScale
 70
     0
300
1:4
140
1.0
141
4.0
290
     0
  0
SCALE
  5
4B
102
{ACAD_REACTORS
330
47
102
}
330
47
100
AcDbScale
 70
     0
300
1:5
140
1.0
141
5.0
290
     0
  0
SCALE
  5
4C
102
{ACAD_REACTORS
330
47
102
}
330
47
100
AcDbScale
 70
     0
300
1:8
140
1.0
141
8.0
290
     0
  0
SCALE
  5
4D
102
{ACAD_REACTORS
330
47
102
}
330
47
100
AcDbScale
 70
     0
300
1:10
140
1.0
141
10.0
290
     0
  0
SCALE
  5
4E
102
{ACAD_REACTORS
330
47
102
}
330
47
100
AcDbScale
 70
     0
300
1:16
140
1.0
141
16.0
290
     0
  0
SCALE
  5
4F
102
{ACAD_REACTORS
330
47
102
}
330
47
100
AcDbScale
 70
     0
300
1:20
140
1.0
141
20.0
290
     0
  0
SCALE
  5
50
102
{ACAD_REACTORS
330
47
102
}
330
47
100
AcDbScale
 70
     0
300
1:30
140
1.0
141
30.0
290
     0
  0
SCALE
  5
51
102
{ACAD_REACTORS
330
47
102
}
330
47
100
AcDbScale
 70
     0
300
1:40
140
1.0
141
40.0
290
     0
  0
SCALE
  5
52
102
{ACAD_REACTORS
330
47
102
}
330
47
100
AcDbScale
 70
     0
300
1:50
140
1.0
141
50.0
290
     0
  0
SCALE
  5
53
102
{ACAD_REACTORS
330
47
102
}
330
47
100
AcDbScale
 70
     0
300
1:100
140
1.0
141
100.0
290
     0
  0
SCALE
  5
54
102
{ACAD_REACTORS
330
47
102
}
330
47
100
AcDbScale
 70
     0
300
2:1
140
2.0
141
1.0
290
     0
  0
SCALE
  5
55
102
{ACAD_REACTORS
330
47
102
}
330
47
100
AcDbScale
 70
     0
300
4:1
140
4.0
141
1.0
290
     0
  0
SCALE
  5
56
102
{ACAD_REACTORS
330
47
102
}
330
47
100
AcDbScale
 70
     0
300
8:1
140
8.0
141
1.0
290
     0
  0
SCALE
  5
57
102
{ACAD_REACTORS
330
47
102
}
330
47
100
AcDbScale
 70
     0
300
10:1
140
10.0
141
1.0
290
     0
  0
SCALE
  5
58
102
{ACAD_REACTORS
330
47
102
}
330
47
100
AcDbScale
 70
     0
300
100:1
140
100.0
141
1.0
290
     0
  0
SCALE
  5
59
102
{ACAD_REACTORS
330
47
102
}
330
47
100
AcDbScale
 70
     0
300
1/128" = 1'-0"
140
0.0078125
141
12.0
290
     0
  0
SCALE
  5
5A
102
{ACAD_REACTORS
330
47
102
}
330
47
100
AcDbScale
 70
     0
300
1/64" = 1'-0"
140
0.015625
141
12.0
290
     0
  0
SCALE
  5
5B
102
{ACAD_REACTORS
330
47
102
}
330
47
100
AcDbScale
 70
     0
300
1/32" = 1'-0"
140
0.03125
141
12.0
290
     0
  0
SCALE
  5
5C
102
{ACAD_REACTORS
330
47
102
}
330
47
100
AcDbScale
 70
     0
300
1/16" = 1'-0"
140
0.0625
141
12.0
290
     0
  0
SCALE
  5
5D
102
{ACAD_REACTORS
330
47
102
}
330
47
100
AcDbScale
 70
     0
300
3/32" = 1'-0"
140
0.09375
141
12.0
290
     0
  0
SCALE
  5
5E
102
{ACAD_REACTORS
330
47
102
}
330
47
100
AcDbScale
 70
     0
300
1/8" = 1'-0"
140
0.125
141
12.0
290
     0
  0
SCALE
  5
5F
102
{ACAD_REACTORS
330
47
102
}
330
47
100
AcDbScale
 70
     0
300
3/16" = 1'-0"
140
0.1875
141
12.0
290
     0
  0
SCALE
  5
60
102
{ACAD_REACTORS
330
47
102
}
330
47
100
AcDbScale
 70
     0
300
1/4" = 1'-0"
140
0.25
141
12.0
290
     0
  0
SCALE
  5
61
102
{ACAD_REACTORS
330
47
102
}
330
47
100
AcDbScale
 70
     0
300
3/8" = 1'-0"
140
0.375
141
12.0
290
     0
  0
SCALE
  5
62
102
{ACAD_REACTORS
330
47
102
}
330
47
100
AcDbScale
 70
     0
300
1/2" = 1'-0"
140
0.5
141
12.0
290
     0
  0
SCALE
  5
63
102
{ACAD_REACTORS
330
47
102
}
330
47
100
AcDbScale
 70
     0
300
3/4" = 1'-0"
140
0.75
141
12.0
290
     0
  0
SCALE
  5
64
102
{ACAD_REACTORS
330
47
102
}
330
47
100
AcDbScale
 70
     0
300
1" = 1'-0"
140
1.0
141
12.0
290
     0
  0
SCALE
  5
65
102
{ACAD_REACTORS
330
47
102
}
330
47
100
AcDbScale
 70
     0
300
1-1/2" = 1'-0"
140
1.5
141
12.0
290
     0
  0
SCALE
  5
66
102
{ACAD_REACTORS
330
47
102
}
330
47
100
AcDbScale
 70
     0
300
3" = 1'-0"
140
3.0
141
12.0
290
     0
  0
SCALE
  5
67
102
{ACAD_REACTORS
330
47
102
}
330
47
100
AcDbScale
 70
     0
300
6" = 1'-0"
140
6.0
141
12.0
290
     0
  0
SCALE
  5
68
102
{ACAD_REACTORS
330
47
102
}
330
47
100
AcDbScale
 70
     0
300
1'-0" = 1'-0"
140
12.0
141
12.0
290
     0
  0
ENDSEC
  0
EOF
